Audioslave - Exploder (var.11) Guitar tab download free or play online

Guitar tab for Exploder (var.11) by Audioslave free download and read or play online: file .txt, 0.98 kb has 62 views and 0 downloads.

Download guitar tab "Exploder (var.11)" (Audioslave)

Audioslave Band name
Exploder Song name
Guitar tabs Tab type
0.98 kb File size
.TXT File type
62 views
0 downloads
 
Are you robot?

Exploder (var.11) guitar tab read and play online

                    Audioslave
Exploder
Transcribed by Adam Poulsen

This is what I can remember at the moment... I'll update
this if I figure out anything else

INTRO
|-----------|
|--7-7-7-7--|
|-----------|
|-----------|
|-----------|
|-----------|
repeat over and over

VERSE
|-----------|-----------|
|--7-7-7-7--|--5-5-5-5--|
|-----------|-----------|
|-----------|-----------|
|-----------|-----------|
|-----------|-----------|
X4           X4

CHORUS
|----------------------------------------|
|-----------------------------------x-x--|
|-----------------------------------x-x--|
|--4--------------4-----------------x-x--|
|-----------------------------------x-x--|
|----2--0--2----0---2--0--2----0-2-------|

|-----------------------------------------|
|-----------------------------------------|
|-----------------------------------------|
|--4--------------4-----------------------|
|-----------------------------------------|
|----2--0--2----0---2--0--2----0-2b--(3)--|

Like I said, I'll add anything else later.                    

Comments for guitar tab — Exploder (var.11) (Audioslave)

Other Exploder (var.11) by Audioslave tabs:

Last viewed Audioslave tabs: