Audioslave - Exploder (var.20) Guitar tab download free or play online

Guitar tab for Exploder (var.20) by Audioslave free download and read or play online: file .txt, 5.21 kb has 64 views and 0 downloads.

Download guitar tab "Exploder (var.20)" (Audioslave)

Audioslave Band name
Exploder Song name
Guitar tabs Tab type
5.21 kb File size
.TXT File type
64 views
0 downloads
 
Are you robot?

Exploder (var.20) guitar tab read and play online

                    #-----------------------------PLEASE NOTE-------------------------------------#
#This file is the author's own work and represents his interpretation of the  #
#song. You may only use this file for private study, scholarship, or research.#
#Remember to view this file in Courier or some other monospaced font.         #
#-----------------------------------------------------------------------------#

Date: Sat, 26 Oct 2002 17:42:45 -0400
From: Patrick McBride 
Subject: a/audioslave/exploder.tab

Artist: Audioslave
Song: Exploder
Tabbed by: Krono (crono3@hotmail.com)
 

A really easy & fun song to play. It's all here except for the
solo... I didn't even try to figure that one. Have fun with it =)
 
Standard Tuning (EADGBE)
 

Intro:
E|-----------------------------------------------------------------
B|-7-7-7-7-7-7-7-7-7-7-7-7-7-7-7-7-7-7-7-7-7-7-7-7-7-7-7-7-7-7-7-7-
G|-----------------------------------------------------------------
D|-----------------------------------------------------------------
A|-----------------------------------------------------------------
E|-----------------------------------------------------------------
 

Verse:
E|-----------------------------------------------------------------
B|-7-7-7-7-7-7-7-7-7-7-7-7-7-7-7-7-7-7-7-7-7-7-7-7-7-7-7-7-7-7-7-7-
G|-----------------------------------------------------------------
D|-----------------------------------------------------------------
A|-----------------------------------------------------------------
E|-----------------------------------------------------------------
  "Met a man, locked away....."
 
E|-----------------------------------------------------------------
B|-6-6-6-6-6-6-6-6-6-6-6-6-6-6-6-6-6-6-6-6-6-6-6-6-6-6-6-6-6-6-6-6-
G|-----------------------------------------------------------------
D|-----------------------------------------------------------------
A|-----------------------------------------------------------------
E|-----------------------------------------------------------------
  "Innocence, on a ball and chain...."
 

Chorus:
E|-----------------------------------------------------------------
B|-----------------------------------------------------------------
G|-----------------------------------------------------------------
D|--4----------4----------------4----------4-----------------------
A|--------4----------4----------------4----------4-----------------
E|----2-0-2-0----2-0-2-0----------2-0-2-0----2-0-2-0-2b3b2---------
                 "If you're free you'll never see the walls...."
 

Outro:
E|-----------------------------------------------------------------
B|-----------------------------------------------------------------
G|-----------------------------------------------------------------
D|--4b5--4b5--4b5--4b5--4b5--4b5b4---------------------------------
A|-----------------------------------------------------------------
E|--2b3--2b3--2b3--2b3--2b3--2b3b2---------------------------------
 

Structure:
 
Intro  x2
Verse  x2
Chorus x4
Verse  x3
Chorus x4
Solo
Verse  x2
Chorus x4
Outro


Date: Tue, 7 Jan 2003 17:21:21 +0100
From: Jesper Bшggild-Christensen 
Subject: a/audioslave/exploder.tab

Artist: Audioslave
Album: Audioslave
Song: Exploder
Lyrics written by: Chris Cornell
Song written and arranged by: Audioslave
Released on: Epic/Interscope
 
Tabbed by: Jesper Boeggild-Christensen
 
I mostly agree with Patrick McBride's tab of Exploder,
so I wont post my own version of it. He didn't tab the
solo, so I gave it a shot.
 
I know it doesn't sound completely like Tom Morello,
but I don't know he gets that really high-pitched sound
on the E-string. He might be using a delay pedal, as
it sounds like he is picking really fast on the strings.
Also so, use some modest distortion. Sounds better.
 
Hope it works for you guys!
 
Kind regards, Jesper Boeggild-Christensen, Denmark.
 

Solo for Audioslave - Exploder:
Standard tuning: [EBGDAE]
 

E|----14----14----14----14----14----14----14----14---
B|---------------------------------------------------
G|---------------------------------------------------
D|-16----16----16----16----16----16----16----16------
A|---------------------------------------------------
E|---------------------------------------------------
 
E|----12----12----12----12----12----12----12----12---
B|---------------------------------------------------
G|---------------------------------------------------
D|-14----14----14----14----14----14----14----14------
A|---------------------------------------------------
E|---------------------------------------------------
 
E|----14----17----14----19----14----21----22---------
B|---------------------------------------------------
G|---------------------------------------------------
D|-16----16----16----16----16----16----16------------
A|---------------------------------------------------
E|---------------------------------------------------
 
E|----12----17----17----16-12------------------------
B|----------------------------15-14------------------
G|----------------------------------14---------------
D|-14----14----14----14----------------16------------
A|---------------------------------------------------
E|---------------------------------------------------
 
 

Visit www.directtabs.com for more tabs.                    

Comments for guitar tab — Exploder (var.20) (Audioslave)

Other Exploder (var.20) by Audioslave tabs:

Last viewed Audioslave tabs: