Audioslave - Like A Stone (var.33) Bass tab download free or play online

Bass tab for Like A Stone (var.33) by Audioslave free download and read or play online: file .txt, 4.48 kb has 102 views and 0 downloads.

Download bass tab "Like A Stone (var.33)" (Audioslave)

Audioslave Band name
Like A Stone Song name
Bass tabs Tab type
4.48 kb File size
.TXT File type
102 views
0 downloads
 
Are you robot?

Like A Stone (var.33) bass tab read and play online

                    Artist: Audioslave
Song: Like a Stone
Tabber: c0z420
Email: coz200059@hotmail.com
Tuning: 5 string standard
BEADG

This is sraight out of Guitar world.

Intro/Verse:
G|-------------------------||------------------------|
D|-------------------------||-------------3----------|
A|-------------------------||------x--x---------5----|
E|--3----x---x--10--(10)--||--3---------------------|
B|-------------------------||------------------------|

Chorus:
G|-------------------------------------------------------------------|
D|-------------------------------------------------------------------|
A|-----------------------------------/8~~-------(8)-(8)-------------|
E|--3~~~--(3)--3--5-----6~~~-------------------------------65---3~~-|
B|-------------------------------------------------------------------|

G|--------------------------------------------------------------------------|
D|--------------------------------------------------------------------------|
A|-----------------------------------/8~~-------/12---------10~~~------10--|
E|--3~~~--3--3--3/-----6~~~--6---6------------------------------------------|
B|--------------------------------------------------------------------------|

G|------------------------------------------------------------------------------|
D|------------------------------------------------------------------------------|
A|--6~~~---(6)---63----------------/8~~-----(8)--(8)--------------------------|
E|--~~~------------------3~~~~-------------------------65----3~~~---(3)--3---3-|
B|------------------------------------------------------------------------------|

G|---------------------------------------------------------------------------------||
D|---------------------------------------------------------------------------------||
A|6~~~------------------------------5~~~----(5)---------------5~~~~-----(5)--5---5-||
E|-------6------3~~~~---(3)-3--3--------------------------------------------------||
B|--------------------------------------------------3---3---3----------------------||

Solo:
G|--------------------------------------------------------------------------|
D|--------------------------------------------------------------------------|
A|-6-6-6-6--6-6-6-6-------------------/8-8-8-8--8-8-8-8---------------------|
E|-------------------3-3-3-3--3-3-3-3--------------------3-3-3-3--3-3-3-3---|
B|--------------------------------------------------------------------------|

G|--------------------------------------------------------------------------|
D|--------------------------------------------------------------------------|
A|-6-6-6-6--6-6-6-6--------------------5-5-5-5--5-5-5-5---------------------|
E|-------------------3-3-3-3--3-3-3-3---------------------------------------|
B|-------------------------------------------------------3--3--3-3--3------|

Bridge:
G|--------------------------------------------------------------------------|
D|--------------------------------------------------------------------------|
A|-6~--------(6)-6---------------------5~~~----(5)-5-----6~~~~~--(6)--5-----|
E|-------------------6~~~-------(6)-6---------------------------------------|
B|--------------------------------------------------------------------------|

G|-------------------------------------------------------------------|
D|-------------------------------------------------------------------|
A|-6~--------(6)-6---3~~~~----5----(5)-5-----6~~~~~------------------|
E|-------------------------------------------------------------------|
B|-------------------------------3-3-3---3-3-3-3---3-3-3-3--3-3-3-3--|

Outro:
G|-------------------------------------------------------------------------------|
D|-------------------------------------------------------------------------------|
A|-5~--------(5)-5---5-------5~~~---(5)---------------5~~~~~--(5)--5---5----6~~~-|
E|-------------------------------------------------------------------------------|
B|---------------------------------------3--3--3---------------------------------|                    

Comments for bass tab — Like A Stone (var.33) (Audioslave)

Other Like A Stone (var.33) by Audioslave tabs:

Last viewed Audioslave tabs: