Audioslave - Set It Off (var.4) Bass tab download free or play online

Bass tab for Set It Off (var.4) by Audioslave free download and read or play online: file .txt, 0.85 kb has 56 views and 0 downloads.

Download bass tab "Set It Off (var.4)" (Audioslave)

Audioslave Band name
Set It Off Song name
Bass tabs Tab type
0.85 kb File size
.TXT File type
56 views
0 downloads
 
Are you robot?

Set It Off (var.4) bass tab read and play online

                    Audioslave - Set It Off

Tabbed By Stephen Pang (piequat@hotmail.com)

This song is one of my favourites :)

Intro/Chorus End (except first chorus)
G|--------------2--|      G|------------------|
D|----------/4-----|      D|--------/4--2-----|
A|-----------------| x 3  A|---------------0--|
E|-0-2-0-2---------|      E|-0-2-0-2----------|

Verse
G|--------------------------|      G|------------------|
D|--------------------------|      D|------------/2----|
A|--------------------------|  x3  A|---------------0--|
E|-2-0-2--2-0-2--2-0-5-2-0--|      E|-2-0-2--2-0-------|

Chorus
G|--------2-------------|      G|--------------|
D|----/4-----4-2---2-4--|      D|----/4--2-----|
A|---------------4------|  x3  A|-----------0--|
E|-2--------------------|      E|-2------------|

Bridge
G|----------------|
D|----------------|
A|----------------|
E|-2-2--2-2--2-2--|                    

Comments for bass tab — Set It Off (var.4) (Audioslave)

Other Set It Off (var.4) by Audioslave tabs:

Last viewed Audioslave tabs: