Audioslave - Be Yourself (var.14) Guitar tab download free or play online

Guitar tab for Be Yourself (var.14) by Audioslave free download and read or play online: file .txt, 4.64 kb has 65 views and 0 downloads.

Download guitar tab "Be Yourself (var.14)" (Audioslave)

Audioslave Band name
Be Yourself Song name
Guitar tabs Tab type
4.64 kb File size
.TXT File type
65 views
0 downloads
 
Are you robot?

Be Yourself (var.14) guitar tab read and play online

                    



Band  : Audioslave

Song  : Be Yourself

Album : Out of Exile

Tuning: Normal (eadg)



The tabs I’ve seen are not quite right. If you’ve watched the video for “Be Yourself” you probably know what I mean. 



Intro: Play nothing



Verse 1:

G|-----------------------------------------------------------------|

D|-----------------------------------------------------------------|

A|------------------5-5-5-5-5-5-----------------------------7-7-7-7| x4

E|--7-7-7-7-7-7-5-5-------------0-0-3-3-3-3-3-3-2-3-0-0-0-0--------|



G|-----------------------------------------------------------------|

D|-----------------------------------------------------------------|

A|--------------4-4-5-5-5-5-5-5-----------------------------7-7-7-7|

E|--7-7-7-7-7-7-----------------0-0-3-3-3-3-3-3-2-3-0-0-0-0--------|



G|-------------------------------------------------|

D|-------------------------------------------------|

A|------------------5-5-5-5-5-5--------------------|

E|--7-7-7-7-7-7-5-5-------------0-0-3-3-3-3-3-3-2-3|



G|---------------------------------|

D|---------------------------------|

A|---------------------------------|

E|--x-x-x-x-x-x-x-x-x-x-x-x-x-x-x-x|



Chorus 1:

G|-----------------------------------------------------------------|

D|-----------------------------------------------------------------|

A|------------------5-5-5-5-5-5-----------------------------7-7-7-7| x2

E|--7-7-7-7-7-7-5-5-------------0-0-3-3-3-3-3-3-2-3-0-0-0-0--------|



Verse 2: With overdrive

G|-----------------------------------------------------------------|

D|-----------------------------------------------------------------|

A|------------------5-5-5-5-5-5-----------------------------7-7-7-7| x3

E|--7-7-7-7-7-7-5-5-------------0-0-3-3-3-3-3-3-2-3-0-0-0-0--------|



G|-----------------------------------------------------------------|

D|------------------------------4-4-5-5-5-5-5-5---5----------------|

A|--------------4-4-5-5-5-5-5-5-----------------7---7-7-7-7-7-7-5-4|

E|--7-7-7-7-7-7----------------------------------------------------|



G|-----------------------------------------------------------------|

D|-----------------------------------------------------------------|

A|------------------5-5-5-5-5-5------------------------------------|

E|--7-7-7-7-7-7-5-5-------------0-0-3~--------------x-x-x-x-x-x-x-x|



Chorus 2:

G|-----------------------------------------------------------------|

D|-----------------------------------------------------------------|

A|------------------5-5-5-5-5-5-----------------------------7-7-7-7| x4

E|--7-7-7-7-7-7-5-5-------------0-0-3-3-3-3-3-3-2-3-0-0-0-0--------|



Solo: With overdrive

G|-----------------------------------------------------------------|

D|-----------------------------------------------------------------|

A|--------------4-4-5-5-5-5-5-5-----------------------------7-7-7-7| x4

E|--7-7-7-7-7-7-----------------0-0-3-3-3-3-3-3-2-3-0-0-0-0--------|



Bridge:

G|---------------------------------------|

D|--------------------------------4--2---|

A|--------------------------2----------5-|

E|--3~------2-5-------5-2-5--------------|

                     

G|---------------------------------------|

D|--------------------------------4--2---|

A|---------------------2/4-2----------5-|

E|--3~-----5/75-------------------------|

        

G|--------------------------------------|

D|-------------------------------4--2---|

A|---------5-4---------5-4-2----------5-|

E|--3~---------5------------------------|

     

G|-------------4--2----------6-|

D|-----------------------------|

A|---------4/5-----------4/5---|

E|--3~-------------------------|



G|-----------------------------------------------------------------|

D|-----------------------------------------------------------------|

A|-----------------------------------------------------------------|

E|--x-x-x-x-x-x-x-x-x-x-x-x-x-x-x-x-x-x-x-x-x-x-x-x-x-x-x-x-x-x-x-x|



G|-----------------------------------------------------------------|

D|-----------------------------------------------------------------|

A|--x-x-x-x-x-x-x-x-x-x-x-x-x-x-x-x-x-x-x-x-x-x-x-x-x-x-x-x-x-x-x-x|

E|-----------------------------------------------------------------|



Chorus 3: With overdrive

G|-----------------------------------------------------------------|

D|-----------------------------------------------------------------|

A|------------------5-5-5-5-5-5-----------------------------7-7-7-7| x4

E|--7-7-7-7-7-7-5-5-------------0-0-3-3-3-3-3-3-2-3-0-0-0-0--------|



Final note:

G|----|

D|--0~|

A|----|

E|----|



                    

Comments for guitar tab — Be Yourself (var.14) (Audioslave)

Other Be Yourself (var.14) by Audioslave tabs:

Last viewed Audioslave tabs: