Audioslave - Moth (var.8) Guitar tab download free or play online

Guitar tab for Moth (var.8) by Audioslave free download and read or play online: file .txt, 2.01 kb has 21 views and 0 downloads.

Download guitar tab "Moth (var.8)" (Audioslave)

Audioslave Band name
Moth Song name
Guitar tabs Tab type
2.01 kb File size
.TXT File type
21 views
0 downloads
 
Are you robot?

Moth (var.8) guitar tab read and play online

                    Tabbed by:penno
Email:toolrageguy@breakthru.com
band/song:audioslave moth
Tuning:DADGBE

e|--------------------------------------------------------------------------|
B|--------------------------------------------------------------------------|
G|--------------------------------------------------------------------------|
D|----7-----------7-----------8-----------8------------5----------5---------|
A|------------0-----------0------------0------------0-----------------------|
D|------0-3-5-------0-3-5--------0-3-5--------0-3-5------0-3-5-3----0-3-5-3-|

e|--------------------------------------------------------------------------|
B|--------------------------------------------------------------------------|
G|--------------------------------------------------------------------------|
D|----7-----------7-----------7-----------7------------8----------8---------|
A|------------0-----------0------------0------------0----------0----------0-|
D|------0-3-5-------0-3-5--------0-3-5--------0-3-5------0-3-5------0-3-5---|
e|--------------------------------------------------------------------------|
B|--------------------------------------------------------------------------|
G|--------------------------------------------------------------------------|
D|----10---------10-----------12----------12--------------------------------|
A|------------0-----------0------------0------------------------------------|
D|------0-3-5-------0-3-5--------0-3-5--------------------------------------|

e|--------------------------------------------------------------------------|
B|--------------------------------------------------------------------------|
G|--------------------------------------------------------------------------|
D|--------------------------------------------------------------------------|
A|15-12-12-10-12-----10-7-5-3-0---------------------------------------------|
D|15-12-12-10-12-----10-7-5-3-0---------------------------------------------|
| /  slide up
| \  slide down
| h  hammer-on
| p  pull-off
| ~  vibrato
| +  harmonic
| x  Mute note                    

Comments for guitar tab — Moth (var.8) (Audioslave)

Other Moth (var.8) by Audioslave tabs:

Last viewed Audioslave tabs: